ISO-10303-21;
HEADER;
FILE_DESCRIPTION (( 'STEP AP214' ),
    '1' );
FILE_NAME ('FULLVAC RC1KF5040.STEP',
    '2019-04-24T08:39:05',
    ( '' ),
    ( '' ),
    'SwSTEP 2.0',
    'SolidWorks 2017',
    '' );
FILE_SCHEMA (( 'AUTOMOTIVE_DESIGN' ));
ENDSEC;

DATA;
#1 = EDGE_LOOP ( 'NONE', ( #165 ) ) ;
#2 = DIRECTION ( 'NONE',  ( 1.000000000000000000, 0.0000000000000000000, 0.0000000000000000000 ) ) ;
#3 = UNCERTAINTY_MEASURE_WITH_UNIT (LENGTH_MEASURE( 1.000000000000000100E-005 ), #105, 'distance_accuracy_value', 'NONE');
#4 = CIRCLE ( 'NONE', #74, 20.57499999999999900 ) ;
#5 = DIRECTION ( 'NONE',  ( 1.000000000000000000, -0.0000000000000000000, -0.0000000000000000000 ) ) ;
#6 = ORIENTED_EDGE ( 'NONE', *, *, #23, .T. ) ;
#7 = DIRECTION ( 'NONE',  ( -1.000000000000000000, 0.0000000000000000000, 0.0000000000000000000 ) ) ;
#8 = DIRECTION ( 'NONE',  ( -1.000000000000000000, 0.0000000000000000000, 0.0000000000000000000 ) ) ;
#9 = PRODUCT_DEFINITION ( 'UNKNOWN', '', #110, #168 ) ;
#10 = SHAPE_DEFINITION_REPRESENTATION ( #279, #286 ) ;
#11 = CARTESIAN_POINT ( 'NONE',  ( 39.89999999999999900, 0.0000000000000000000, 0.0000000000000000000 ) ) ;
#12 = CARTESIAN_POINT ( 'NONE',  ( 3.200000000015085900, 0.0000000000000000000, 0.0000000000000000000 ) ) ;
#13 = CARTESIAN_POINT ( 'NONE',  ( 31.79999999999780200, 0.0000000000000000000, 0.0000000000000000000 ) ) ;
#14 = CIRCLE ( 'NONE', #46, 20.57499999999999900 ) ;
#15 = SURFACE_SIDE_STYLE ('',( #160 ) ) ;
#16 = EDGE_LOOP ( 'NONE', ( #285 ) ) ;
#17 = AXIS2_PLACEMENT_3D ( 'NONE', #264, #22, #102 ) ;
#18 = ADVANCED_FACE ( 'NONE', ( #50, #138 ), #97, .F. ) ;
#19 = VERTEX_POINT ( 'NONE', #206 ) ;
#20 = CARTESIAN_POINT ( 'NONE',  ( 31.80000000000000100, 0.0000000000000000000, -19.05000000000000100 ) ) ;
#21 = CONICAL_SURFACE ( 'NONE', #276, 37.45000000000405300, 1.308996939000000000 ) ;
#22 = DIRECTION ( 'NONE',  ( 0.0000000000000000000, 0.0000000000000000000, 1.000000000000000000 ) ) ;
#23 = EDGE_CURVE ( 'NONE', #227, #227, #212, .T. ) ;
#24 = EDGE_LOOP ( 'NONE', ( #275 ) ) ;
#25 = MANIFOLD_SOLID_BREP ( '\X2\5BE69AD4\X0\2', #27 ) ;
#26 = ADVANCED_FACE ( 'NONE', ( #319, #161 ), #116, .T. ) ;
#27 = CLOSED_SHELL ( 'NONE', ( #243, #268, #127, #209, #347, #18, #193, #26, #289, #129, #238, #52, #124, #318, #98 ) ) ;
#28 = EDGE_CURVE ( 'NONE', #119, #119, #149, .T. ) ;
#29 = FACE_OUTER_BOUND ( 'NONE', #223, .T. ) ;
#30 = ORIENTED_EDGE ( 'NONE', *, *, #346, .F. ) ;
#31 = DIRECTION ( 'NONE',  ( 1.000000000000000000, -0.0000000000000000000, 0.0000000000000000000 ) ) ;
#32 = AXIS2_PLACEMENT_3D ( 'NONE', #58, #278, #198 ) ;
#33 = CYLINDRICAL_SURFACE ( 'NONE', #134, 17.39999999999999900 ) ;
#34 = PLANE ( 'NONE',  #76 ) ;
#35 = CARTESIAN_POINT ( 'NONE',  ( 36.70000000000000300, 0.0000000000000000000, 0.0000000000000000000 ) ) ;
#36 = DIRECTION ( 'NONE',  ( 0.0000000000000000000, 0.0000000000000000000, -1.000000000000000000 ) ) ;
#37 = AXIS2_PLACEMENT_3D ( 'NONE', #107, #208, #349 ) ;
#38 = FACE_BOUND ( 'NONE', #99, .T. ) ;
#39 = DIRECTION ( 'NONE',  ( 0.0000000000000000000, 0.0000000000000000000, 1.000000000000000000 ) ) ;
#40 = EDGE_LOOP ( 'NONE', ( #188 ) ) ;
#41 = DIRECTION ( 'NONE',  ( 0.0000000000000000000, 0.0000000000000000000, -1.000000000000000000 ) ) ;
#42 = PRESENTATION_STYLE_ASSIGNMENT (( #187 ) ) ;
#43 = DIRECTION ( 'NONE',  ( 1.000000000000000000, -0.0000000000000000000, 0.0000000000000000000 ) ) ;
#44 = DIRECTION ( 'NONE',  ( 0.0000000000000000000, 0.0000000000000000000, -1.000000000000000000 ) ) ;
#45 = CARTESIAN_POINT ( 'NONE',  ( 34.44922678359645100, 0.0000000000000000000, -19.04999999999522200 ) ) ;
#46 = AXIS2_PLACEMENT_3D ( 'NONE', #287, #233, #39 ) ;
#47 = CARTESIAN_POINT ( 'NONE',  ( 5.100000000002406600, 0.0000000000000000000, 25.40000000001013100 ) ) ;
#48 = FACE_OUTER_BOUND ( 'NONE', #81, .T. ) ;
#49 = MECHANICAL_DESIGN_GEOMETRIC_PRESENTATION_REPRESENTATION (  '', ( #291 ), #249 ) ;
#50 = FACE_OUTER_BOUND ( 'NONE', #327, .T. ) ;
#51 = CARTESIAN_POINT ( 'NONE',  ( 37.35999999999999900, 0.0000000000000000000, 20.57499999999999900 ) ) ;
#52 = ADVANCED_FACE ( 'NONE', ( #348, #48 ), #182, .T. ) ;
#53 = FACE_OUTER_BOUND ( 'NONE', #16, .T. ) ;
#54 = FILL_AREA_STYLE_COLOUR ( '', #115 ) ;
#55 = ORIENTED_EDGE ( 'NONE', *, *, #234, .F. ) ;
#56 = EDGE_CURVE ( 'NONE', #328, #328, #57, .T. ) ;
#57 = CIRCLE ( 'NONE', #112, 17.39999999999999900 ) ;
#58 = CARTESIAN_POINT ( 'NONE',  ( 36.69999999998214700, 0.0000000000000000000, 0.0000000000000000000 ) ) ;
#59 = EDGE_LOOP ( 'NONE', ( #79 ) ) ;
#60 = DIRECTION ( 'NONE',  ( 0.0000000000000000000, 0.0000000000000000000, -1.000000000000000000 ) ) ;
#61 = DIRECTION ( 'NONE',  ( 0.0000000000000000000, 0.0000000000000000000, -1.000000000000000000 ) ) ;
#62 = AXIS2_PLACEMENT_3D ( 'NONE', #144, #43, #185 ) ;
#63 = CARTESIAN_POINT ( 'NONE',  ( 2.540000000000000000, 5.658629075561449600E-016, -1.398698817326410200E-015 ) ) ;
#64 = ORIENTED_EDGE ( 'NONE', *, *, #339, .F. ) ;
#65 = CARTESIAN_POINT ( 'NONE',  ( 0.0000000000000000000, 0.0000000000000000000, 0.0000000000000000000 ) ) ;
#66 = AXIS2_PLACEMENT_3D ( 'NONE', #189, #205, #266 ) ;
#67 = DIRECTION ( 'NONE',  ( -1.000000000000000000, 0.0000000000000000000, 0.0000000000000000000 ) ) ;
#68 = CARTESIAN_POINT ( 'NONE',  ( 5.100000000002406600, 0.0000000000000000000, 0.0000000000000000000 ) ) ;
#69 = EDGE_LOOP ( 'NONE', ( #313 ) ) ;
#70 = DIRECTION ( 'NONE',  ( 0.0000000000000000000, 0.0000000000000000000, 1.000000000000000000 ) ) ;
#71 = CARTESIAN_POINT ( 'NONE',  ( 39.89999999999999900, 0.0000000000000000000, 0.0000000000000000000 ) ) ;
#72 = UNCERTAINTY_MEASURE_WITH_UNIT (LENGTH_MEASURE( 1.000000000000000100E-005 ), #157, 'distance_accuracy_value', 'NONE');
#73 = EDGE_CURVE ( 'NONE', #216, #216, #294, .T. ) ;
#74 = AXIS2_PLACEMENT_3D ( 'NONE', #11, #120, #201 ) ;
#75 = CARTESIAN_POINT ( 'NONE',  ( 3.200000000000000200, 0.0000000000000000000, -37.45000000000000300 ) ) ;
#76 = AXIS2_PLACEMENT_3D ( 'NONE', #63, #140, #253 ) ;
#77 = FACE_OUTER_BOUND ( 'NONE', #250, .T. ) ;
#78 = AXIS2_PLACEMENT_3D ( 'NONE', #176, #220, #174 ) ;
#79 = ORIENTED_EDGE ( 'NONE', *, *, #95, .F. ) ;
#80 = CIRCLE ( 'NONE', #37, 19.04999999999522200 ) ;
#81 = EDGE_LOOP ( 'NONE', ( #232 ) ) ;
#82 = AXIS2_PLACEMENT_3D ( 'NONE', #181, #341, #337 ) ;
#83 = AXIS2_PLACEMENT_3D ( 'NONE', #111, #84, #272 ) ;
#84 = DIRECTION ( 'NONE',  ( 1.000000000000000000, 0.0000000000000000000, 0.0000000000000000000 ) ) ;
#85 = VERTEX_POINT ( 'NONE', #211 ) ;
#86 = CYLINDRICAL_SURFACE ( 'NONE', #271, 27.44999999999999900 ) ;
#87 =( NAMED_UNIT ( * ) SI_UNIT ( $, .STERADIAN. ) SOLID_ANGLE_UNIT ( ) );
#88 = VERTEX_POINT ( 'NONE', #240 ) ;
#89 = CIRCLE ( 'NONE', #121, 27.44999999999999900 ) ;
#90 = EDGE_LOOP ( 'NONE', ( #235 ) ) ;
#91 =( GEOMETRIC_REPRESENTATION_CONTEXT ( 3 ) GLOBAL_UNCERTAINTY_ASSIGNED_CONTEXT ( ( #3 ) ) GLOBAL_UNIT_ASSIGNED_CONTEXT ( ( #105, #293, #128 ) ) REPRESENTATION_CONTEXT ( 'NONE', 'WORKASPACE' ) );
#92 = VERTEX_POINT ( 'NONE', #75 ) ;
#93 = DIRECTION ( 'NONE',  ( -1.000000000000000000, 0.0000000000000000000, 0.0000000000000000000 ) ) ;
#94 = ORIENTED_EDGE ( 'NONE', *, *, #354, .T. ) ;
#95 = EDGE_CURVE ( 'NONE', #258, #258, #338, .T. ) ;
#96 = DIRECTION ( 'NONE',  ( 1.000000000000000000, 0.0000000000000000000, 0.0000000000000000000 ) ) ;
#97 = CYLINDRICAL_SURFACE ( 'NONE', #304, 20.57499999999999900 ) ;
#98 = ADVANCED_FACE ( 'NONE', ( #325, #53 ), #315, .T. ) ;
#99 = EDGE_LOOP ( 'NONE', ( #172 ) ) ;
#100 = CARTESIAN_POINT ( 'NONE',  ( 5.099999999984913000, 0.0000000000000000000, 30.35910346561516300 ) ) ;
#101 = CARTESIAN_POINT ( 'NONE',  ( 39.89999999999999900, 0.0000000000000000000, 27.44999999999999900 ) ) ;
#102 = DIRECTION ( 'NONE',  ( 1.000000000000000000, 0.0000000000000000000, 0.0000000000000000000 ) ) ;
#103 = AXIS2_PLACEMENT_3D ( 'NONE', #222, #31, #221 ) ;
#104 = FACE_BOUND ( 'NONE', #108, .T. ) ;
#105 =( LENGTH_UNIT ( ) NAMED_UNIT ( * ) SI_UNIT ( .MILLI., .METRE. ) );
#106 = EDGE_LOOP ( 'NONE', ( #213 ) ) ;
#107 = CARTESIAN_POINT ( 'NONE',  ( 34.44922678359645100, 0.0000000000000000000, 0.0000000000000000000 ) ) ;
#108 = EDGE_LOOP ( 'NONE', ( #94 ) ) ;
#109 = SURFACE_STYLE_USAGE ( .BOTH. , #270 ) ;
#110 = PRODUCT_DEFINITION_FORMATION_WITH_SPECIFIED_SOURCE ( 'ANY', '', #246, .NOT_KNOWN. ) ;
#111 = CARTESIAN_POINT ( 'NONE',  ( 0.0000000000000000000, 0.0000000000000000000, 0.0000000000000000000 ) ) ;
#112 = AXIS2_PLACEMENT_3D ( 'NONE', #171, #7, #147 ) ;
#113 = DIRECTION ( 'NONE',  ( 0.0000000000000000000, 0.0000000000000000000, 1.000000000000000000 ) ) ;
#114 = DIRECTION ( 'NONE',  ( 0.0000000000000000000, 0.0000000000000000000, 1.000000000000000000 ) ) ;
#115 = COLOUR_RGB ( '',0.7450980392156862900, 0.7450980392156862900, 0.7450980392156862900 ) ;
#116 = PLANE ( 'NONE',  #103 ) ;
#117 = ORIENTED_EDGE ( 'NONE', *, *, #178, .F. ) ;
#118 = CARTESIAN_POINT ( 'NONE',  ( 0.0000000000000000000, 0.0000000000000000000, -37.45000000000000300 ) ) ;
#119 = VERTEX_POINT ( 'NONE', #295 ) ;
#120 = DIRECTION ( 'NONE',  ( -1.000000000000000000, 0.0000000000000000000, 0.0000000000000000000 ) ) ;
#121 = AXIS2_PLACEMENT_3D ( 'NONE', #336, #155, #150 ) ;
#122 = AXIS2_PLACEMENT_3D ( 'NONE', #310, #197, #60 ) ;
#123 = CARTESIAN_POINT ( 'NONE',  ( 2.540000000000000000, 0.0000000000000000000, -26.16000000000000000 ) ) ;
#124 = ADVANCED_FACE ( 'NONE', ( #38, #131 ), #224, .T. ) ;
#125 = APPLICATION_PROTOCOL_DEFINITION ( 'draft international standard', 'automotive_design', 1998, #261 ) ;
#126 = ORIENTED_EDGE ( 'NONE', *, *, #234, .T. ) ;
#127 = ADVANCED_FACE ( 'NONE', ( #104, #324 ), #34, .F. ) ;
#128 =( NAMED_UNIT ( * ) SI_UNIT ( $, .STERADIAN. ) SOLID_ANGLE_UNIT ( ) );
#129 = ADVANCED_FACE ( 'NONE', ( #263, #29 ), #86, .T. ) ;
#130 = CARTESIAN_POINT ( 'NONE',  ( 37.35999999999999900, 0.0000000000000000000, 17.39999999999999900 ) ) ;
#131 = FACE_OUTER_BOUND ( 'NONE', #350, .T. ) ;
#132 = AXIS2_PLACEMENT_3D ( 'NONE', #65, #342, #257 ) ;
#133 = ORIENTED_EDGE ( 'NONE', *, *, #28, .T. ) ;
#134 = AXIS2_PLACEMENT_3D ( 'NONE', #71, #67, #312 ) ;
#135 = EDGE_LOOP ( 'NONE', ( #305 ) ) ;
#136 = AXIS2_PLACEMENT_3D ( 'NONE', #169, #2, #196 ) ;
#137 = SURFACE_STYLE_FILL_AREA ( #303 ) ;
#138 = FACE_OUTER_BOUND ( 'NONE', #1, .T. ) ;
#139 =( LENGTH_UNIT ( ) NAMED_UNIT ( * ) SI_UNIT ( .MILLI., .METRE. ) );
#140 = DIRECTION ( 'NONE',  ( 1.000000000000000000, -0.0000000000000000000, 0.0000000000000000000 ) ) ;
#141 = VERTEX_POINT ( 'NONE', #100 ) ;
#142 = CIRCLE ( 'NONE', #345, 25.40000000001013100 ) ;
#143 = CARTESIAN_POINT ( 'NONE',  ( 2.540000000000000000, 0.0000000000000000000, 0.0000000000000000000 ) ) ;
#144 = CARTESIAN_POINT ( 'NONE',  ( 37.35999999999999900, 3.597320452410390200E-016, 9.294399895858840900E-016 ) ) ;
#145 = EDGE_LOOP ( 'NONE', ( #344 ) ) ;
#146 = PRODUCT_RELATED_PRODUCT_CATEGORY ( 'part', '', ( #246 ) ) ;
#147 = DIRECTION ( 'NONE',  ( 0.0000000000000000000, 0.0000000000000000000, 1.000000000000000000 ) ) ;
#148 = VERTEX_POINT ( 'NONE', #320 ) ;
#149 = CIRCLE ( 'NONE', #166, 27.44999999999999900 ) ;
#150 = DIRECTION ( 'NONE',  ( 0.0000000000000000000, 0.0000000000000000000, 1.000000000000000000 ) ) ;
#151 = EDGE_LOOP ( 'NONE', ( #117 ) ) ;
#152 = DIRECTION ( 'NONE',  ( 1.000000000000000000, 0.0000000000000000000, 0.0000000000000000000 ) ) ;
#153 = MECHANICAL_DESIGN_GEOMETRIC_PRESENTATION_REPRESENTATION (  '', ( #316 ), #91 ) ;
#154 = AXIS2_PLACEMENT_3D ( 'NONE', #173, #306, #36 ) ;
#155 = DIRECTION ( 'NONE',  ( 1.000000000000000000, -0.0000000000000000000, -0.0000000000000000000 ) ) ;
#156 = FACE_OUTER_BOUND ( 'NONE', #151, .T. ) ;
#157 =( LENGTH_UNIT ( ) NAMED_UNIT ( * ) SI_UNIT ( .MILLI., .METRE. ) );
#158 = ORIENTED_EDGE ( 'NONE', *, *, #73, .T. ) ;
#159 = AXIS2_PLACEMENT_3D ( 'NONE', #143, #308, #61 ) ;
#160 = SURFACE_STYLE_FILL_AREA ( #236 ) ;
#161 = FACE_OUTER_BOUND ( 'NONE', #184, .T. ) ;
#162 =( NAMED_UNIT ( * ) PLANE_ANGLE_UNIT ( ) SI_UNIT ( $, .RADIAN. ) );
#163 = FACE_OUTER_BOUND ( 'NONE', #265, .T. ) ;
#164 = CYLINDRICAL_SURFACE ( 'NONE', #167, 26.16000000000000000 ) ;
#165 = ORIENTED_EDGE ( 'NONE', *, *, #269, .F. ) ;
#166 = AXIS2_PLACEMENT_3D ( 'NONE', #35, #5, #333 ) ;
#167 = AXIS2_PLACEMENT_3D ( 'NONE', #314, #152, #41 ) ;
#168 = PRODUCT_DEFINITION_CONTEXT ( 'detailed design', #343, 'design' ) ;
#169 = CARTESIAN_POINT ( 'NONE',  ( 31.80000000000000100, 0.0000000000000000000, 0.0000000000000000000 ) ) ;
#170 = CONICAL_SURFACE ( 'NONE', #225, 23.75000000001016100, 0.2137059377902295900 ) ;
#171 = CARTESIAN_POINT ( 'NONE',  ( 37.35999999999999900, 0.0000000000000000000, 0.0000000000000000000 ) ) ;
#172 = ORIENTED_EDGE ( 'NONE', *, *, #323, .T. ) ;
#173 = CARTESIAN_POINT ( 'NONE',  ( 0.0000000000000000000, 0.0000000000000000000, 0.0000000000000000000 ) ) ;
#174 = DIRECTION ( 'NONE',  ( 0.0000000000000000000, 0.0000000000000000000, -1.000000000000000000 ) ) ;
#175 = CIRCLE ( 'NONE', #66, 23.75000000001016100 ) ;
#176 = CARTESIAN_POINT ( 'NONE',  ( 5.099999999999999600, 0.0000000000000000000, -19.05000000000000100 ) ) ;
#177 = FACE_OUTER_BOUND ( 'NONE', #195, .T. ) ;
#178 = EDGE_CURVE ( 'NONE', #85, #85, #191, .T. ) ;
#179 = ORIENTED_EDGE ( 'NONE', *, *, #269, .T. ) ;
#180 = DIRECTION ( 'NONE',  ( -1.000000000000000000, 0.0000000000000000000, 0.0000000000000000000 ) ) ;
#181 = CARTESIAN_POINT ( 'NONE',  ( 5.099999999984913000, 0.0000000000000000000, 0.0000000000000000000 ) ) ;
#182 = CONICAL_SURFACE ( 'NONE', #32, 27.45000000000478500, 1.308996939000000500 ) ;
#183 = DIRECTION ( 'NONE',  ( 0.0000000000000000000, 0.0000000000000000000, 1.000000000000000000 ) ) ;
#184 = EDGE_LOOP ( 'NONE', ( #300 ) ) ;
#185 = DIRECTION ( 'NONE',  ( 0.0000000000000000000, 0.0000000000000000000, -1.000000000000000000 ) ) ;
#186 = FACE_BOUND ( 'NONE', #280, .T. ) ;
#187 = SURFACE_STYLE_USAGE ( .BOTH. , #15 ) ;
#188 = ORIENTED_EDGE ( 'NONE', *, *, #298, .F. ) ;
#189 = CARTESIAN_POINT ( 'NONE',  ( 2.540000000002201800, 0.0000000000000000000, 0.0000000000000000000 ) ) ;
#190 = VERTEX_POINT ( 'NONE', #101 ) ;
#191 = CIRCLE ( 'NONE', #154, 26.16000000000000000 ) ;
#192 =( GEOMETRIC_REPRESENTATION_CONTEXT ( 3 ) GLOBAL_UNCERTAINTY_ASSIGNED_CONTEXT ( ( #72 ) ) GLOBAL_UNIT_ASSIGNED_CONTEXT ( ( #157, #162, #242 ) ) REPRESENTATION_CONTEXT ( 'NONE', 'WORKASPACE' ) );
#193 = ADVANCED_FACE ( 'NONE', ( #248, #274 ), #332, .F. ) ;
#194 = CIRCLE ( 'NONE', #301, 17.39999999998983800 ) ;
#195 = EDGE_LOOP ( 'NONE', ( #179 ) ) ;
#196 = DIRECTION ( 'NONE',  ( 0.0000000000000000000, 0.0000000000000000000, -1.000000000000000000 ) ) ;
#197 = DIRECTION ( 'NONE',  ( 1.000000000000000000, -0.0000000000000000000, 0.0000000000000000000 ) ) ;
#198 = DIRECTION ( 'NONE',  ( 0.0000000000000000000, 0.0000000000000000000, -1.000000000000000000 ) ) ;
#199 = EDGE_LOOP ( 'NONE', ( #335 ) ) ;
#200 = DIRECTION ( 'NONE',  ( 0.0000000000000000000, 0.0000000000000000000, 1.000000000000000000 ) ) ;
#201 = DIRECTION ( 'NONE',  ( 0.0000000000000000000, 0.0000000000000000000, 1.000000000000000000 ) ) ;
#202 = PRESENTATION_LAYER_ASSIGNMENT (  '', '', ( #291 ) ) ;
#203 = EDGE_LOOP ( 'NONE', ( #247 ) ) ;
#204 = CARTESIAN_POINT ( 'NONE',  ( 3.200000000000000200, 0.0000000000000000000, 0.0000000000000000000 ) ) ;
#205 = DIRECTION ( 'NONE',  ( 1.000000000000000000, -0.0000000000000000000, -0.0000000000000000000 ) ) ;
#206 = CARTESIAN_POINT ( 'NONE',  ( 39.89999999999999900, 0.0000000000000000000, 20.57499999999999900 ) ) ;
#207 = ORIENTED_EDGE ( 'NONE', *, *, #95, .T. ) ;
#208 = DIRECTION ( 'NONE',  ( 1.000000000000000000, 0.0000000000000000000, 0.0000000000000000000 ) ) ;
#209 = ADVANCED_FACE ( 'NONE', ( #186, #177 ), #219, .T. ) ;
#210 = VERTEX_POINT ( 'NONE', #45 ) ;
#211 = CARTESIAN_POINT ( 'NONE',  ( 0.0000000000000000000, 0.0000000000000000000, -26.16000000000000000 ) ) ;
#212 = CIRCLE ( 'NONE', #83, 37.45000000000000300 ) ;
#213 = ORIENTED_EDGE ( 'NONE', *, *, #56, .F. ) ;
#214 = COLOUR_RGB ( '',0.7450980392156862900, 0.7450980392156862900, 0.7450980392156862900 ) ;
#215 = ORIENTED_EDGE ( 'NONE', *, *, #23, .F. ) ;
#216 = VERTEX_POINT ( 'NONE', #20 ) ;
#217 = CIRCLE ( 'NONE', #82, 30.35910346561516300 ) ;
#218 = EDGE_LOOP ( 'NONE', ( #352 ) ) ;
#219 = PLANE ( 'NONE',  #62 ) ;
#220 = DIRECTION ( 'NONE',  ( 1.000000000000000000, -0.0000000000000000000, 0.0000000000000000000 ) ) ;
#221 = DIRECTION ( 'NONE',  ( 0.0000000000000000000, 0.0000000000000000000, -1.000000000000000000 ) ) ;
#222 = CARTESIAN_POINT ( 'NONE',  ( 39.89999999999999900, 3.885294924322510200E-016, -9.714716642291439400E-016 ) ) ;
#223 = EDGE_LOOP ( 'NONE', ( #133 ) ) ;
#224 = PLANE ( 'NONE',  #78 ) ;
#225 = AXIS2_PLACEMENT_3D ( 'NONE', #317, #93, #70 ) ;
#226 = DIRECTION ( 'NONE',  ( -1.000000000000000000, 0.0000000000000000000, 0.0000000000000000000 ) ) ;
#227 = VERTEX_POINT ( 'NONE', #118 ) ;
#228 = AXIS2_PLACEMENT_3D ( 'NONE', #251, #331, #114 ) ;
#229 = FACE_OUTER_BOUND ( 'NONE', #106, .T. ) ;
#230 = DIRECTION ( 'NONE',  ( 0.0000000000000000000, 0.0000000000000000000, -1.000000000000000000 ) ) ;
#231 = PRESENTATION_LAYER_ASSIGNMENT (  '', '', ( #316 ) ) ;
#232 = ORIENTED_EDGE ( 'NONE', *, *, #28, .F. ) ;
#233 = DIRECTION ( 'NONE',  ( 1.000000000000000000, -0.0000000000000000000, -0.0000000000000000000 ) ) ;
#234 = EDGE_CURVE ( 'NONE', #141, #141, #217, .T. ) ;
#235 = ORIENTED_EDGE ( 'NONE', *, *, #178, .T. ) ;
#236 = FILL_AREA_STYLE ('',( #262 ) ) ;
#237 = EDGE_CURVE ( 'NONE', #92, #92, #311, .T. ) ;
#238 = ADVANCED_FACE ( 'NONE', ( #334, #77 ), #21, .T. ) ;
#239 = FACE_OUTER_BOUND ( 'NONE', #290, .T. ) ;
#240 = CARTESIAN_POINT ( 'NONE',  ( 31.79999999999780200, 0.0000000000000000000, -17.39999999998983800 ) ) ;
#241 = ORIENTED_EDGE ( 'NONE', *, *, #56, .T. ) ;
#242 =( NAMED_UNIT ( * ) SI_UNIT ( $, .STERADIAN. ) SOLID_ANGLE_UNIT ( ) );
#243 = ADVANCED_FACE ( 'NONE', ( #330, #307 ), #170, .F. ) ;
#244 = AXIS2_PLACEMENT_3D ( 'NONE', #204, #282, #230 ) ;
#245 = FACE_OUTER_BOUND ( 'NONE', #256, .T. ) ;
#246 = PRODUCT ( 'FULLVAC RC1KF5040', 'FULLVAC RC1KF5040', '', ( #322 ) ) ;
#247 = ORIENTED_EDGE ( 'NONE', *, *, #354, .F. ) ;
#248 = FACE_BOUND ( 'NONE', #90, .T. ) ;
#249 =( GEOMETRIC_REPRESENTATION_CONTEXT ( 3 ) GLOBAL_UNCERTAINTY_ASSIGNED_CONTEXT ( ( #351 ) ) GLOBAL_UNIT_ASSIGNED_CONTEXT ( ( #139, #277, #87 ) ) REPRESENTATION_CONTEXT ( 'NONE', 'WORKASPACE' ) );
#250 = EDGE_LOOP ( 'NONE', ( #254 ) ) ;
#251 = CARTESIAN_POINT ( 'NONE',  ( 5.100000000002399500, 0.0000000000000000000, 0.0000000000000000000 ) ) ;
#252 = FACE_OUTER_BOUND ( 'NONE', #135, .T. ) ;
#253 = DIRECTION ( 'NONE',  ( 0.0000000000000000000, 0.0000000000000000000, -1.000000000000000000 ) ) ;
#254 = ORIENTED_EDGE ( 'NONE', *, *, #237, .F. ) ;
#255 = CARTESIAN_POINT ( 'NONE',  ( 39.89999999999999900, 0.0000000000000000000, 0.0000000000000000000 ) ) ;
#256 = EDGE_LOOP ( 'NONE', ( #6 ) ) ;
#257 = DIRECTION ( 'NONE',  ( 0.0000000000000000000, 0.0000000000000000000, -1.000000000000000000 ) ) ;
#258 = VERTEX_POINT ( 'NONE', #123 ) ;
#259 = CYLINDRICAL_SURFACE ( 'NONE', #281, 37.45000000000000300 ) ;
#260 = DIRECTION ( 'NONE',  ( 0.0000000000000000000, 0.0000000000000000000, -1.000000000000000000 ) ) ;
#261 = APPLICATION_CONTEXT ( 'automotive_design' ) ;
#262 = FILL_AREA_STYLE_COLOUR ( '', #214 ) ;
#263 = FACE_OUTER_BOUND ( 'NONE', #40, .T. ) ;
#264 = CARTESIAN_POINT ( 'NONE',  ( 0.0000000000000000000, 0.0000000000000000000, 0.0000000000000000000 ) ) ;
#265 = EDGE_LOOP ( 'NONE', ( #207 ) ) ;
#266 = DIRECTION ( 'NONE',  ( 0.0000000000000000000, 0.0000000000000000000, 1.000000000000000000 ) ) ;
#267 = FACE_OUTER_BOUND ( 'NONE', #24, .T. ) ;
#268 = ADVANCED_FACE ( 'NONE', ( #229, #267 ), #33, .F. ) ;
#269 = EDGE_CURVE ( 'NONE', #273, #273, #14, .T. ) ;
#270 = SURFACE_SIDE_STYLE ('',( #137 ) ) ;
#271 = AXIS2_PLACEMENT_3D ( 'NONE', #255, #8, #113 ) ;
#272 = DIRECTION ( 'NONE',  ( 0.0000000000000000000, 0.0000000000000000000, -1.000000000000000000 ) ) ;
#273 = VERTEX_POINT ( 'NONE', #51 ) ;
#274 = FACE_OUTER_BOUND ( 'NONE', #296, .T. ) ;
#275 = ORIENTED_EDGE ( 'NONE', *, *, #297, .T. ) ;
#276 = AXIS2_PLACEMENT_3D ( 'NONE', #12, #180, #183 ) ;
#277 =( NAMED_UNIT ( * ) PLANE_ANGLE_UNIT ( ) SI_UNIT ( $, .RADIAN. ) );
#278 = DIRECTION ( 'NONE',  ( 1.000000000000000000, 0.0000000000000000000, 0.0000000000000000000 ) ) ;
#279 = PRODUCT_DEFINITION_SHAPE ( 'NONE', 'NONE',  #9 ) ;
#280 = EDGE_LOOP ( 'NONE', ( #241 ) ) ;
#281 = AXIS2_PLACEMENT_3D ( 'NONE', #340, #96, #260 ) ;
#282 = DIRECTION ( 'NONE',  ( -1.000000000000000000, -0.0000000000000000000, -0.0000000000000000000 ) ) ;
#283 = PRESENTATION_STYLE_ASSIGNMENT (( #109 ) ) ;
#284 = DIRECTION ( 'NONE',  ( -1.000000000000000000, 0.0000000000000000000, 0.0000000000000000000 ) ) ;
#285 = ORIENTED_EDGE ( 'NONE', *, *, #323, .F. ) ;
#286 = ADVANCED_BREP_SHAPE_REPRESENTATION ( 'FULLVAC RC1KF5040', ( #25, #17 ), #192 ) ;
#287 = CARTESIAN_POINT ( 'NONE',  ( 37.35999999999999900, 0.0000000000000000000, 0.0000000000000000000 ) ) ;
#288 = FACE_OUTER_BOUND ( 'NONE', #321, .T. ) ;
#289 = ADVANCED_FACE ( 'NONE', ( #245, #252 ), #259, .T. ) ;
#290 = EDGE_LOOP ( 'NONE', ( #158 ) ) ;
#291 = STYLED_ITEM ( 'NONE', ( #283 ), #25 ) ;
#292 = APPLICATION_PROTOCOL_DEFINITION ( 'draft international standard', 'automotive_design', 1998, #343 ) ;
#293 =( NAMED_UNIT ( * ) PLANE_ANGLE_UNIT ( ) SI_UNIT ( $, .RADIAN. ) );
#294 = CIRCLE ( 'NONE', #136, 19.05000000000000100 ) ;
#295 = CARTESIAN_POINT ( 'NONE',  ( 36.70000000000000300, 0.0000000000000000000, 27.44999999999999900 ) ) ;
#296 = EDGE_LOOP ( 'NONE', ( #215 ) ) ;
#297 = EDGE_CURVE ( 'NONE', #88, #88, #194, .T. ) ;
#298 = EDGE_CURVE ( 'NONE', #190, #190, #89, .T. ) ;
#299 = CYLINDRICAL_SURFACE ( 'NONE', #132, 19.05000000000000100 ) ;
#300 = ORIENTED_EDGE ( 'NONE', *, *, #298, .T. ) ;
#301 = AXIS2_PLACEMENT_3D ( 'NONE', #13, #226, #44 ) ;
#302 = VERTEX_POINT ( 'NONE', #47 ) ;
#303 = FILL_AREA_STYLE ('',( #54 ) ) ;
#304 = AXIS2_PLACEMENT_3D ( 'NONE', #326, #329, #353 ) ;
#305 = ORIENTED_EDGE ( 'NONE', *, *, #237, .T. ) ;
#306 = DIRECTION ( 'NONE',  ( 1.000000000000000000, 0.0000000000000000000, 0.0000000000000000000 ) ) ;
#307 = FACE_OUTER_BOUND ( 'NONE', #203, .T. ) ;
#308 = DIRECTION ( 'NONE',  ( 1.000000000000000000, 0.0000000000000000000, 0.0000000000000000000 ) ) ;
#309 = EDGE_LOOP ( 'NONE', ( #126 ) ) ;
#310 = CARTESIAN_POINT ( 'NONE',  ( 0.0000000000000000000, -1.963283835118420200E-015, 7.905459899422560000E-016 ) ) ;
#311 = CIRCLE ( 'NONE', #244, 37.45000000000000300 ) ;
#312 = DIRECTION ( 'NONE',  ( 0.0000000000000000000, 0.0000000000000000000, 1.000000000000000000 ) ) ;
#313 = ORIENTED_EDGE ( 'NONE', *, *, #339, .T. ) ;
#314 = CARTESIAN_POINT ( 'NONE',  ( 0.0000000000000000000, 0.0000000000000000000, 0.0000000000000000000 ) ) ;
#315 = CONICAL_SURFACE ( 'NONE', #228, 25.40000000001013100, 0.2334899949522071200 ) ;
#316 = STYLED_ITEM ( 'NONE', ( #42 ), #286 ) ;
#317 = CARTESIAN_POINT ( 'NONE',  ( 2.540000000002200100, 0.0000000000000000000, 0.0000000000000000000 ) ) ;
#318 = ADVANCED_FACE ( 'NONE', ( #239, #288 ), #299, .T. ) ;
#319 = FACE_BOUND ( 'NONE', #69, .T. ) ;
#320 = CARTESIAN_POINT ( 'NONE',  ( 2.540000000002201800, 0.0000000000000000000, 23.75000000001016100 ) ) ;
#321 = EDGE_LOOP ( 'NONE', ( #30 ) ) ;
#322 = PRODUCT_CONTEXT ( 'NONE', #261, 'mechanical' ) ;
#323 = EDGE_CURVE ( 'NONE', #302, #302, #142, .T. ) ;
#324 = FACE_OUTER_BOUND ( 'NONE', #59, .T. ) ;
#325 = FACE_BOUND ( 'NONE', #218, .T. ) ;
#326 = CARTESIAN_POINT ( 'NONE',  ( 39.89999999999999900, 0.0000000000000000000, 0.0000000000000000000 ) ) ;
#327 = EDGE_LOOP ( 'NONE', ( #64 ) ) ;
#328 = VERTEX_POINT ( 'NONE', #130 ) ;
#329 = DIRECTION ( 'NONE',  ( -1.000000000000000000, 0.0000000000000000000, 0.0000000000000000000 ) ) ;
#330 = FACE_BOUND ( 'NONE', #199, .T. ) ;
#331 = DIRECTION ( 'NONE',  ( -1.000000000000000000, 0.0000000000000000000, 0.0000000000000000000 ) ) ;
#332 = PLANE ( 'NONE',  #122 ) ;
#333 = DIRECTION ( 'NONE',  ( 0.0000000000000000000, 0.0000000000000000000, 1.000000000000000000 ) ) ;
#334 = FACE_BOUND ( 'NONE', #309, .T. ) ;
#335 = ORIENTED_EDGE ( 'NONE', *, *, #297, .F. ) ;
#336 = CARTESIAN_POINT ( 'NONE',  ( 39.89999999999999900, 0.0000000000000000000, 0.0000000000000000000 ) ) ;
#337 = DIRECTION ( 'NONE',  ( 0.0000000000000000000, 0.0000000000000000000, 1.000000000000000000 ) ) ;
#338 = CIRCLE ( 'NONE', #159, 26.16000000000000000 ) ;
#339 = EDGE_CURVE ( 'NONE', #19, #19, #4, .T. ) ;
#340 = CARTESIAN_POINT ( 'NONE',  ( 0.0000000000000000000, 0.0000000000000000000, 0.0000000000000000000 ) ) ;
#341 = DIRECTION ( 'NONE',  ( -1.000000000000000000, 0.0000000000000000000, 0.0000000000000000000 ) ) ;
#342 = DIRECTION ( 'NONE',  ( 1.000000000000000000, 0.0000000000000000000, 0.0000000000000000000 ) ) ;
#343 = APPLICATION_CONTEXT ( 'automotive_design' ) ;
#344 = ORIENTED_EDGE ( 'NONE', *, *, #346, .T. ) ;
#345 = AXIS2_PLACEMENT_3D ( 'NONE', #68, #284, #200 ) ;
#346 = EDGE_CURVE ( 'NONE', #210, #210, #80, .T. ) ;
#347 = ADVANCED_FACE ( 'NONE', ( #156, #163 ), #164, .F. ) ;
#348 = FACE_BOUND ( 'NONE', #145, .T. ) ;
#349 = DIRECTION ( 'NONE',  ( 0.0000000000000000000, 0.0000000000000000000, -1.000000000000000000 ) ) ;
#350 = EDGE_LOOP ( 'NONE', ( #55 ) ) ;
#351 = UNCERTAINTY_MEASURE_WITH_UNIT (LENGTH_MEASURE( 1.000000000000000100E-005 ), #139, 'distance_accuracy_value', 'NONE');
#352 = ORIENTED_EDGE ( 'NONE', *, *, #73, .F. ) ;
#353 = DIRECTION ( 'NONE',  ( 0.0000000000000000000, 0.0000000000000000000, 1.000000000000000000 ) ) ;
#354 = EDGE_CURVE ( 'NONE', #148, #148, #175, .T. ) ;
ENDSEC;
END-ISO-10303-21;
